ISO-10303-21;
HEADER;
FILE_DESCRIPTION (( 'STEP AP203' ),
    '1' );
FILE_NAME ('MQWP-25.4-488.STEP',
    '2020-12-22T09:29:53',
    ( '' ),
    ( '' ),
    'SwSTEP 2.0',
    'SolidWorks 2020',
    '' );
FILE_SCHEMA (( 'CONFIG_CONTROL_DESIGN' ));
ENDSEC;

DATA;
#1 = CARTESIAN_POINT ( 'NONE',  ( 0.000000000000000000, 0.000000000000000000, 3.000000000000000000 ) ) ;
#2 = CARTESIAN_POINT ( 'NONE',  ( 0.9999999999999995559, 0.000000000000000000, 0.000000000000000000 ) ) ;
#3 = CALENDAR_DATE ( 2020, 22, 12 ) ;
#4 = APPROVAL ( #30, 'UNSPECIFIED' ) ;
#5 = FACE_OUTER_BOUND ( 'NONE', #93, .T. ) ;
#6 = PERSON_AND_ORGANIZATION ( #38, #139 ) ;
#7 = CC_DESIGN_SECURITY_CLASSIFICATION ( #113, ( #12 ) ) ;
#8 = DATE_AND_TIME ( #124, #85 ) ;
#9 = CC_DESIGN_PERSON_AND_ORGANIZATION_ASSIGNMENT ( #164, #16, ( #86 ) ) ;
#10 = ORIENTED_EDGE ( 'NONE', *, *, #82, .F. ) ;
#11 = CC_DESIGN_APPROVAL ( #4, ( #86 ) ) ;
#12 = PRODUCT_DEFINITION_FORMATION_WITH_SPECIFIED_SOURCE ( 'ANY', '', #102, .NOT_KNOWN. ) ;
#13 = DIRECTION ( 'NONE',  ( -1.000000000000000000, -0.000000000000000000, -0.000000000000000000 ) ) ;
#14 = CARTESIAN_POINT ( 'NONE',  ( 0.000000000000000000, 0.000000000000000000, 0.000000000000000000 ) ) ;
#15 = PLANE ( 'NONE',  #83 ) ;
#16 = PERSON_AND_ORGANIZATION_ROLE ( 'creator' ) ;
#17 = CARTESIAN_POINT ( 'NONE',  ( 0.9999999999999995559, 0.000000000000000000, 3.000000000000000000 ) ) ;
#18 = PERSON_AND_ORGANIZATION ( #38, #139 ) ;
#19 = ADVANCED_FACE ( 'NONE', ( #128 ), #64, .T. ) ;
#20 = LOCAL_TIME ( 17, 29, 53.00000000000000000, #56 ) ;
#21 = EDGE_LOOP ( 'NONE', ( #168, #71, #116, #140 ) ) ;
#22 = VERTEX_POINT ( 'NONE', #17 ) ;
#23 = CARTESIAN_POINT ( 'NONE',  ( 1.224646799147353454E-16, 3.000000000000000000, 0.000000000000000000 ) ) ;
#24 = APPLICATION_PROTOCOL_DEFINITION ( 'international standard', 'config_control_design', 1994, #159 ) ;
#25 = CARTESIAN_POINT ( 'NONE',  ( 0.000000000000000000, 0.000000000000000000, 0.000000000000000000 ) ) ;
#26 = DATE_AND_TIME ( #3, #20 ) ;
#27 = CIRCLE ( 'NONE', #174, 3.000000000000000000 ) ;
#28 = PERSON_AND_ORGANIZATION ( #38, #139 ) ;
#29 = EDGE_LOOP ( 'NONE', ( #77, #171 ) ) ;
#30 = APPROVAL_STATUS ( 'not_yet_approved' ) ;
#31 = PERSON_AND_ORGANIZATION ( #38, #139 ) ;
#32 = ADVANCED_FACE ( 'NONE', ( #144 ), #108, .T. ) ;
#33 = ADVANCED_BREP_SHAPE_REPRESENTATION ( 'MQWP-25.4-488', ( #107, #63 ), #54 ) ;
#34 = DIRECTION ( 'NONE',  ( 0.000000000000000000, 0.000000000000000000, 1.000000000000000000 ) ) ;
#35 = LOCAL_TIME ( 17, 29, 53.00000000000000000, #96 ) ;
#36 = CARTESIAN_POINT ( 'NONE',  ( 0.9999999999999995559, 0.000000000000000000, 0.000000000000000000 ) ) ;
#37 = DIRECTION ( 'NONE',  ( 0.000000000000000000, 0.000000000000000000, 1.000000000000000000 ) ) ;
#38 = PERSON ( 'UNSPECIFIED', 'UNSPECIFIED', 'UNSPECIFIED', ('UNSPECIFIED'), ('UNSPECIFIED'), ('UNSPECIFIED') ) ;
#39 = AXIS2_PLACEMENT_3D ( 'NONE', #14, #106, #162 ) ;
#40 = APPROVAL_DATE_TIME ( #26, #155 ) ;
#41 = ORIENTED_EDGE ( 'NONE', *, *, #48, .T. ) ;
#42 = EDGE_LOOP ( 'NONE', ( #72, #41, #152, #95 ) ) ;
#43 = APPLICATION_PROTOCOL_DEFINITION ( 'international standard', 'config_control_design', 1994, #92 ) ;
#44 = AXIS2_PLACEMENT_3D ( 'NONE', #132, #165, #87 ) ;
#45 = CIRCLE ( 'NONE', #146, 3.000000000000000000 ) ;
#46 = LINE ( 'NONE', #88, #97 ) ;
#47 = CC_DESIGN_APPROVAL ( #155, ( #113 ) ) ;
#48 = EDGE_CURVE ( 'NONE', #79, #137, #46, .T. ) ;
#49 = DIRECTION ( 'NONE',  ( -1.000000000000000000, -0.000000000000000000, -0.000000000000000000 ) ) ;
#50 = PRODUCT_DEFINITION_SHAPE ( 'NONE', 'NONE',  #86 ) ;
#51 =( NAMED_UNIT ( * ) PLANE_ANGLE_UNIT ( ) SI_UNIT ( $, .RADIAN. ) );
#52 = DIRECTION ( 'NONE',  ( -1.000000000000000000, 0.000000000000000000, -0.000000000000000000 ) ) ;
#53 = PERSON_AND_ORGANIZATION_ROLE ( 'classification_officer' ) ;
#54 =( GEOMETRIC_REPRESENTATION_CONTEXT ( 3 ) GLOBAL_UNCERTAINTY_ASSIGNED_CONTEXT ( ( #157 ) ) GLOBAL_UNIT_ASSIGNED_CONTEXT ( ( #65, #51, #175 ) ) REPRESENTATION_CONTEXT ( 'NONE', 'WORKASPACE' ) );
#55 = DATE_AND_TIME ( #154, #156 ) ;
#56 = COORDINATED_UNIVERSAL_TIME_OFFSET ( 8, 0, .AHEAD. ) ;
#57 = COORDINATED_UNIVERSAL_TIME_OFFSET ( 8, 0, .AHEAD. ) ;
#58 = LOCAL_TIME ( 17, 29, 53.00000000000000000, #80 ) ;
#59 = ADVANCED_FACE ( 'NONE', ( #122 ), #15, .F. ) ;
#60 = APPROVAL_PERSON_ORGANIZATION ( #18, #4, #148 ) ;
#61 = DIRECTION ( 'NONE',  ( -1.000000000000000000, -0.000000000000000000, -0.000000000000000000 ) ) ;
#62 = CARTESIAN_POINT ( 'NONE',  ( 0.9999999999999997780, 3.000000000000000000, 0.000000000000000000 ) ) ;
#63 = AXIS2_PLACEMENT_3D ( 'NONE', #25, #74, #135 ) ;
#64 = CYLINDRICAL_SURFACE ( 'NONE', #39, 3.000000000000000000 ) ;
#65 =( LENGTH_UNIT ( ) NAMED_UNIT ( * ) SI_UNIT ( .MILLI., .METRE. ) );
#66 = SECURITY_CLASSIFICATION_LEVEL ( 'unclassified' ) ;
#67 = COORDINATED_UNIVERSAL_TIME_OFFSET ( 8, 0, .AHEAD. ) ;
#68 = PERSON_AND_ORGANIZATION_ROLE ( 'creator' ) ;
#69 = PERSON_AND_ORGANIZATION ( #38, #139 ) ;
#70 = VECTOR ( 'NONE', #13, 1000.000000000000000 ) ;
#71 = ORIENTED_EDGE ( 'NONE', *, *, #134, .T. ) ;
#72 = ORIENTED_EDGE ( 'NONE', *, *, #82, .T. ) ;
#73 = DIRECTION ( 'NONE',  ( -1.000000000000000000, -0.000000000000000000, -0.000000000000000000 ) ) ;
#74 = DIRECTION ( 'NONE',  ( 0.000000000000000000, 0.000000000000000000, 1.000000000000000000 ) ) ;
#75 = DIRECTION ( 'NONE',  ( -1.000000000000000000, -0.000000000000000000, -0.000000000000000000 ) ) ;
#76 = PERSON_AND_ORGANIZATION_ROLE ( 'design_supplier' ) ;
#77 = ORIENTED_EDGE ( 'NONE', *, *, #125, .T. ) ;
#78 = SHAPE_DEFINITION_REPRESENTATION ( #50, #33 ) ;
#79 = VERTEX_POINT ( 'NONE', #84 ) ;
#80 = COORDINATED_UNIVERSAL_TIME_OFFSET ( 8, 0, .AHEAD. ) ;
#81 = APPROVAL_ROLE ( '' ) ;
#82 = EDGE_CURVE ( 'NONE', #22, #79, #27, .T. ) ;
#83 = AXIS2_PLACEMENT_3D ( 'NONE', #23, #90, #121 ) ;
#84 = CARTESIAN_POINT ( 'NONE',  ( 0.9999999999999995559, 3.673940397442059868E-16, -3.000000000000000000 ) ) ;
#85 = LOCAL_TIME ( 17, 29, 53.00000000000000000, #67 ) ;
#86 = PRODUCT_DEFINITION ( 'UNKNOWN', '', #12, #115 ) ;
#87 = DIRECTION ( 'NONE',  ( 0.000000000000000000, 0.000000000000000000, 1.000000000000000000 ) ) ;
#88 = CARTESIAN_POINT ( 'NONE',  ( 0.000000000000000000, 3.673940397442059868E-16, -3.000000000000000000 ) ) ;
#89 = CALENDAR_DATE ( 2020, 22, 12 ) ;
#90 = DIRECTION ( 'NONE',  ( 1.000000000000000000, 0.000000000000000000, 0.000000000000000000 ) ) ;
#91 = DATE_TIME_ROLE ( 'classification_date' ) ;
#92 = APPLICATION_CONTEXT ( 'configuration controlled 3d designs of mechanical parts and assemblies' ) ;
#93 = EDGE_LOOP ( 'NONE', ( #10, #141 ) ) ;
#94 = APPROVAL_STATUS ( 'not_yet_approved' ) ;
#95 = ORIENTED_EDGE ( 'NONE', *, *, #169, .F. ) ;
#96 = COORDINATED_UNIVERSAL_TIME_OFFSET ( 8, 0, .AHEAD. ) ;
#97 = VECTOR ( 'NONE', #61, 1000.000000000000000 ) ;
#98 = CC_DESIGN_PERSON_AND_ORGANIZATION_ASSIGNMENT ( #6, #53, ( #113 ) ) ;
#99 = AXIS2_PLACEMENT_3D ( 'NONE', #36, #160, #37 ) ;
#100 = CC_DESIGN_PERSON_AND_ORGANIZATION_ASSIGNMENT ( #111, #150, ( #102 ) ) ;
#101 = APPROVAL_PERSON_ORGANIZATION ( #69, #161, #126 ) ;
#102 = PRODUCT ( 'MQWP-25.4-488', 'MQWP-25.4-488', '', ( #112 ) ) ;
#103 = PLANE ( 'NONE',  #120 ) ;
#104 = CIRCLE ( 'NONE', #44, 3.000000000000000000 ) ;
#105 = CARTESIAN_POINT ( 'NONE',  ( 0.000000000000000000, 0.000000000000000000, 0.000000000000000000 ) ) ;
#106 = DIRECTION ( 'NONE',  ( -1.000000000000000000, -0.000000000000000000, -0.000000000000000000 ) ) ;
#107 = MANIFOLD_SOLID_BREP ( 'Ðý×', #172 ) ;
#108 = CYLINDRICAL_SURFACE ( 'NONE', #131, 3.000000000000000000 ) ;
#109 = DATE_AND_TIME ( #89, #35 ) ;
#110 = APPROVAL_DATE_TIME ( #109, #161 ) ;
#111 = PERSON_AND_ORGANIZATION ( #38, #139 ) ;
#112 = MECHANICAL_CONTEXT ( 'NONE', #159, 'mechanical' ) ;
#113 = SECURITY_CLASSIFICATION ( '', '', #66 ) ;
#114 = ADVANCED_FACE ( 'NONE', ( #5 ), #103, .F. ) ;
#115 = DESIGN_CONTEXT ( 'detailed design', #92, 'design' ) ;
#116 = ORIENTED_EDGE ( 'NONE', *, *, #169, .T. ) ;
#117 = CIRCLE ( 'NONE', #99, 3.000000000000000000 ) ;
#118 = CARTESIAN_POINT ( 'NONE',  ( 2.449293598294706907E-16, 0.000000000000000000, 3.000000000000000000 ) ) ;
#119 = CARTESIAN_POINT ( 'NONE',  ( 2.449293598294706907E-16, 0.000000000000000000, 0.000000000000000000 ) ) ;
#120 = AXIS2_PLACEMENT_3D ( 'NONE', #62, #52, #143 ) ;
#121 = DIRECTION ( 'NONE',  ( 0.000000000000000000, 0.000000000000000000, -1.000000000000000000 ) ) ;
#122 = FACE_OUTER_BOUND ( 'NONE', #29, .T. ) ;
#123 = APPROVAL_DATE_TIME ( #8, #4 ) ;
#124 = CALENDAR_DATE ( 2020, 22, 12 ) ;
#125 = EDGE_CURVE ( 'NONE', #173, #137, #104, .T. ) ;
#126 = APPROVAL_ROLE ( '' ) ;
#127 = CC_DESIGN_PERSON_AND_ORGANIZATION_ASSIGNMENT ( #145, #76, ( #12 ) ) ;
#128 = FACE_OUTER_BOUND ( 'NONE', #42, .T. ) ;
#129 = PRODUCT_RELATED_PRODUCT_CATEGORY ( 'detail', '', ( #102 ) ) ;
#130 = CC_DESIGN_PERSON_AND_ORGANIZATION_ASSIGNMENT ( #28, #68, ( #12 ) ) ;
#131 = AXIS2_PLACEMENT_3D ( 'NONE', #105, #73, #133 ) ;
#132 = CARTESIAN_POINT ( 'NONE',  ( 2.449293598294706907E-16, 0.000000000000000000, 0.000000000000000000 ) ) ;
#133 = DIRECTION ( 'NONE',  ( 0.000000000000000000, 0.000000000000000000, 1.000000000000000000 ) ) ;
#134 = EDGE_CURVE ( 'NONE', #79, #22, #117, .T. ) ;
#135 = DIRECTION ( 'NONE',  ( 1.000000000000000000, 0.000000000000000000, 0.000000000000000000 ) ) ;
#136 = DATE_AND_TIME ( #166, #58 ) ;
#137 = VERTEX_POINT ( 'NONE', #149 ) ;
#138 = APPROVAL_STATUS ( 'not_yet_approved' ) ;
#139 = ORGANIZATION ( 'UNSPECIFIED', 'UNSPECIFIED', '' ) ;
#140 = ORIENTED_EDGE ( 'NONE', *, *, #142, .F. ) ;
#141 = ORIENTED_EDGE ( 'NONE', *, *, #134, .F. ) ;
#142 = EDGE_CURVE ( 'NONE', #137, #173, #45, .T. ) ;
#143 = DIRECTION ( 'NONE',  ( -0.000000000000000000, 0.000000000000000000, 1.000000000000000000 ) ) ;
#144 = FACE_OUTER_BOUND ( 'NONE', #21, .T. ) ;
#145 = PERSON_AND_ORGANIZATION ( #38, #139 ) ;
#146 = AXIS2_PLACEMENT_3D ( 'NONE', #119, #75, #34 ) ;
#147 = DIRECTION ( 'NONE',  ( 0.000000000000000000, 0.000000000000000000, 1.000000000000000000 ) ) ;
#148 = APPROVAL_ROLE ( '' ) ;
#149 = CARTESIAN_POINT ( 'NONE',  ( 2.449293598294706907E-16, 3.673940397442059868E-16, -3.000000000000000000 ) ) ;
#150 = PERSON_AND_ORGANIZATION_ROLE ( 'design_owner' ) ;
#151 = CC_DESIGN_DATE_AND_TIME_ASSIGNMENT ( #55, #167, ( #86 ) ) ;
#152 = ORIENTED_EDGE ( 'NONE', *, *, #125, .F. ) ;
#153 = APPROVAL_PERSON_ORGANIZATION ( #31, #155, #81 ) ;
#154 = CALENDAR_DATE ( 2020, 22, 12 ) ;
#155 = APPROVAL ( #138, 'UNSPECIFIED' ) ;
#156 = LOCAL_TIME ( 17, 29, 53.00000000000000000, #57 ) ;
#157 = UNCERTAINTY_MEASURE_WITH_UNIT (LENGTH_MEASURE( 1.000000000000000082E-05 ), #65, 'distance_accuracy_value', 'NONE');
#158 = CC_DESIGN_DATE_AND_TIME_ASSIGNMENT ( #136, #91, ( #113 ) ) ;
#159 = APPLICATION_CONTEXT ( 'configuration controlled 3d designs of mechanical parts and assemblies' ) ;
#160 = DIRECTION ( 'NONE',  ( -1.000000000000000000, -0.000000000000000000, -0.000000000000000000 ) ) ;
#161 = APPROVAL ( #94, 'UNSPECIFIED' ) ;
#162 = DIRECTION ( 'NONE',  ( 0.000000000000000000, 0.000000000000000000, 1.000000000000000000 ) ) ;
#163 = LINE ( 'NONE', #1, #70 ) ;
#164 = PERSON_AND_ORGANIZATION ( #38, #139 ) ;
#165 = DIRECTION ( 'NONE',  ( -1.000000000000000000, -0.000000000000000000, -0.000000000000000000 ) ) ;
#166 = CALENDAR_DATE ( 2020, 22, 12 ) ;
#167 = DATE_TIME_ROLE ( 'creation_date' ) ;
#168 = ORIENTED_EDGE ( 'NONE', *, *, #48, .F. ) ;
#169 = EDGE_CURVE ( 'NONE', #22, #173, #163, .T. ) ;
#170 = CC_DESIGN_APPROVAL ( #161, ( #12 ) ) ;
#171 = ORIENTED_EDGE ( 'NONE', *, *, #142, .T. ) ;
#172 = CLOSED_SHELL ( 'NONE', ( #19, #32, #114, #59 ) ) ;
#173 = VERTEX_POINT ( 'NONE', #118 ) ;
#174 = AXIS2_PLACEMENT_3D ( 'NONE', #2, #49, #147 ) ;
#175 =( NAMED_UNIT ( * ) SI_UNIT ( $, .STERADIAN. ) SOLID_ANGLE_UNIT ( ) );
ENDSEC;
END-ISO-10303-21;
